  0
SECTION
  2
HEADER
  9
$ACADVER
  1
AC1015
  9
$ACADMAINTVER
 70
     6
  9
$DWGCODEPAGE
  3
ANSI_1254
  9
$INSBASE
 10
0.0
 20
0.0
 30
0.0
  9
$EXTMIN
 10
0.0
 20
0.0
 30
0.0
  9
$EXTMAX
 10
279.4
 20
215.9
 30
0.0
  9
$LIMMIN
 10
0.0
 20
0.0
  9
$LIMMAX
 10
279.4
 20
215.9
  9
$ORTHOMODE
 70
     0
  9
$REGENMODE
 70
     1
  9
$FILLMODE
 70
     1
  9
$QTEXTMODE
 70
     0
  9
$MIRRTEXT
 70
     1
  9
$LTSCALE
 40
1.0
  9
$ATTMODE
 70
     1
  9
$TEXTSIZE
 40
3.5
  9
$TRACEWID
 40
1.0
  9
$TEXTSTYLE
  7
Standard
  9
$CLAYER
  8
0
  9
$CELTYPE
  6
ByLayer
  9
$CECOLOR
 62
   256
  9
$CELTSCALE
 40
1.0
  9
$DISPSILH
 70
     0
  9
$DIMSCALE
 40
1.0
  9
$DIMASZ
 40
3.5
  9
$DIMEXO
 40
1.0
  9
$DIMDLI
 40
3.75
  9
$DIMRND
 40
0.0
  9
$DIMDLE
 40
0.0
  9
$DIMEXE
 40
1.0
  9
$DIMTP
 40
0.0
  9
$DIMTM
 40
0.0
  9
$DIMTXT
 40
3.5
  9
$DIMCEN
 40
2.5
  9
$DIMTSZ
 40
0.0
  9
$DIMTOL
 70
     0
  9
$DIMLIM
 70
     0
  9
$DIMTIH
 70
     1
  9
$DIMTOH
 70
     1
  9
$DIMSE1
 70
     0
  9
$DIMSE2
 70
     0
  9
$DIMTAD
 70
     1
  9
$DIMZIN
 70
     0
  9
$DIMBLK
  1

  9
$DIMASO
 70
     1
  9
$DIMSHO
 70
     1
  9
$DIMPOST
  1

  9
$DIMAPOST
  1

  9
$DIMALT
 70
     0
  9
$DIMALTD
 70
     3
  9
$DIMALTF
 40
0.0393700787
  9
$DIMLFAC
 40
1.0
  9
$DIMTOFL
 70
     1
  9
$DIMTVP
 40
0.0
  9
$DIMTIX
 70
     0
  9
$DIMSOXD
 70
     0
  9
$DIMSAH
 70
     0
  9
$DIMBLK1
  1

  9
$DIMBLK2
  1

  9
$DIMSTYLE
  2
ISO-25
  9
$DIMCLRD
 70
     0
  9
$DIMCLRE
 70
     0
  9
$DIMCLRT
 70
     0
  9
$DIMTFAC
 40
1.0
  9
$DIMGAP
 40
1.524
  9
$DIMJUST
 70
     0
  9
$DIMSD1
 70
     0
  9
$DIMSD2
 70
     0
  9
$DIMTOLJ
 70
     0
  9
$DIMTZIN
 70
     0
  9
$DIMALTZ
 70
     0
  9
$DIMALTTZ
 70
     0
  9
$DIMUPT
 70
     0
  9
$DIMDEC
 70
     2
  9
$DIMTDEC
 70
     2
  9
$DIMALTU
 70
     2
  9
$DIMALTTD
 70
     3
  9
$DIMTXSTY
  7
Standard
  9
$DIMAUNIT
 70
     0
  9
$DIMADEC
 70
     2
  9
$DIMALTRND
 40
0.0
  9
$DIMAZIN
 70
     0
  9
$DIMDSEP
 70
    44
  9
$DIMATFIT
 70
     3
  9
$DIMFRAC
 70
     0
  9
$DIMLDRBLK
  1

  9
$DIMLUNIT
 70
     2
  9
$DIMLWD
 70
    -2
  9
$DIMLWE
 70
    -2
  9
$DIMTMOVE
 70
     0
  9
$LUNITS
 70
     2
  9
$LUPREC
 70
     2
  9
$SKETCHINC
 40
1.0
  9
$FILLETRAD
 40
10.0
  9
$AUNITS
 70
     0
  9
$AUPREC
 70
     2
  9
$MENU
  1
.
  9
$ELEVATION
 40
0.0
  9
$PELEVATION
 40
0.0
  9
$THICKNESS
 40
0.0
  9
$LIMCHECK
 70
     0
  9
$CHAMFERA
 40
0.0
  9
$CHAMFERB
 40
0.0
  9
$CHAMFERC
 40
0.0
  9
$CHAMFERD
 40
0.0
  9
$SKPOLY
 70
     0
  9
$TDCREATE
 40
2458985.651328912
  9
$TDUCREATE
 40
2458985.526328912
  9
$TDUPDATE
 40
2458985.651329224
  9
$TDUUPDATE
 40
2458985.526329224
  9
$TDINDWG
 40
0.0000000116
  9
$TDUSRTIMER
 40
0.0000000116
  9
$USRTIMER
 70
     1
  9
$ANGBASE
 50
0.0
  9
$ANGDIR
 70
     0
  9
$PDMODE
 70
     0
  9
$PDSIZE
 40
-1.0
  9
$PLINEWID
 40
0.0
  9
$SPLFRAME
 70
     0
  9
$SPLINETYPE
 70
     6
  9
$SPLINESEGS
 70
     8
  9
$HANDSEED
  5
C0
  9
$SURFTAB1
 70
     6
  9
$SURFTAB2
 70
     6
  9
$SURFTYPE
 70
     6
  9
$SURFU
 70
     6
  9
$SURFV
 70
     6
  9
$UCSBASE
  2

  9
$UCSNAME
  2

  9
$UCSORG
 10
0.0
 20
0.0
 30
0.0
  9
$UCSXDIR
 10
1.0
 20
0.0
 30
0.0
  9
$UCSYDIR
 10
0.0
 20
1.0
 30
0.0
  9
$UCSORTHOREF
  2

  9
$UCSORTHOVIEW
 70
     0
  9
$UCSORGTOP
 10
0.0
 20
0.0
 30
0.0
  9
$UCSORGBOTTOM
 10
0.0
 20
0.0
 30
0.0
  9
$UCSORGLEFT
 10
0.0
 20
0.0
 30
0.0
  9
$UCSORGRIGHT
 10
0.0
 20
0.0
 30
0.0
  9
$UCSORGFRONT
 10
0.0
 20
0.0
 30
0.0
  9
$UCSORGBACK
 10
0.0
 20
0.0
 30
0.0
  9
$PUCSBASE
  2

  9
$PUCSNAME
  2

  9
$PUCSORG
 10
0.0
 20
0.0
 30
0.0
  9
$PUCSXDIR
 10
1.0
 20
0.0
 30
0.0
  9
$PUCSYDIR
 10
0.0
 20
1.0
 30
0.0
  9
$PUCSORTHOREF
  2

  9
$PUCSORTHOVIEW
 70
     0
  9
$PUCSORGTOP
 10
0.0
 20
0.0
 30
0.0
  9
$PUCSORGBOTTOM
 10
0.0
 20
0.0
 30
0.0
  9
$PUCSORGLEFT
 10
0.0
 20
0.0
 30
0.0
  9
$PUCSORGRIGHT
 10
0.0
 20
0.0
 30
0.0
  9
$PUCSORGFRONT
 10
0.0
 20
0.0
 30
0.0
  9
$PUCSORGBACK
 10
0.0
 20
0.0
 30
0.0
  9
$USERI1
 70
     0
  9
$USERI2
 70
     0
  9
$USERI3
 70
     0
  9
$USERI4
 70
     0
  9
$USERI5
 70
     0
  9
$USERR1
 40
0.0
  9
$USERR2
 40
0.0
  9
$USERR3
 40
0.0
  9
$USERR4
 40
0.0
  9
$USERR5
 40
0.0
  9
$WORLDVIEW
 70
     1
  9
$SHADEDGE
 70
     3
  9
$SHADEDIF
 70
    70
  9
$TILEMODE
 70
     1
  9
$MAXACTVP
 70
    64
  9
$PINSBASE
 10
0.0
 20
0.0
 30
0.0
  9
$PLIMCHECK
 70
     0
  9
$PEXTMIN
 10
1.0000000000E+20
 20
1.0000000000E+20
 30
1.0000000000E+20
  9
$PEXTMAX
 10
-1.0000000000E+20
 20
-1.0000000000E+20
 30
-1.0000000000E+20
  9
$PLIMMIN
 10
0.0
 20
0.0
  9
$PLIMMAX
 10
420.0
 20
297.0
  9
$UNITMODE
 70
     0
  9
$VISRETAIN
 70
     1
  9
$PLINEGEN
 70
     0
  9
$PSLTSCALE
 70
     1
  9
$TREEDEPTH
 70
  3020
  9
$CMLSTYLE
  2
Standard
  9
$CMLJUST
 70
     0
  9
$CMLSCALE
 40
20.0
  9
$PROXYGRAPHICS
 70
     1
  9
$MEASUREMENT
 70
     1
  9
$CELWEIGHT
370
    -1
  9
$ENDCAPS
280
     0
  9
$JOINSTYLE
280
     0
  9
$LWDISPLAY
290
     1
  9
$INSUNITS
 70
     4
  9
$HYPERLINKBASE
  1

  9
$STYLESHEET
  1

  9
$XEDIT
290
     1
  9
$CEPSNTYPE
380
     0
  9
$PSTYLEMODE
290
     1
  9
$FINGERPRINTGUID
  2
{66879617-256d-4a20-bb8e-3a3c148e4f06}
  9
$VERSIONGUID
  2
{FAEB1C32-E019-11D5-929B-00C0DF256EC4}
  9
$EXTNAMES
290
     1
  9
$PSVPSCALE
 40
0.0
  9
$OLESTARTUP
290
     0
  0
ENDSEC
  0
SECTION
  2
CLASSES
  0
CLASS
  1
ACDBDICTIONARYWDFLT
  2
AcDbDictionaryWithDefault
  3
ObjectDBX Classes
 90
        0
280
     0
281
     0
  0
CLASS
  1
VISUALSTYLE
  2
AcDbVisualStyle
  3
ObjectDBX Classes
 90
     4095
280
     0
281
     0
  0
CLASS
  1
MATERIAL
  2
AcDbMaterial
  3
ObjectDBX Classes
 90
     1153
280
     0
281
     0
  0
CLASS
  1
SCALE
  2
AcDbScale
  3
ObjectDBX Classes
 90
     1153
280
     0
281
     0
  0
CLASS
  1
TABLESTYLE
  2
AcDbTableStyle
  3
ObjectDBX Classes
 90
     4095
280
     0
281
     0
  0
CLASS
  1
MLEADERSTYLE
  2
AcDbMLeaderStyle
  3
ACDB_MLEADERSTYLE_CLASS
 90
     4095
280
     0
281
     0
  0
CLASS
  1
SUN
  2
AcDbSun
  3
SCENEOE
 90
     1153
280
     0
281
     0
  0
CLASS
  1
ACDBPLACEHOLDER
  2
AcDbPlaceHolder
  3
ObjectDBX Classes
 90
        0
280
     0
281
     0
  0
CLASS
  1
LAYOUT
  2
AcDbLayout
  3
ObjectDBX Classes
 90
        0
280
     0
281
     0
  0
ENDSEC
  0
SECTION
  2
TABLES
  0
TABLE
  2
VPORT
  5
8
330
0
100
AcDbSymbolTable
 70
     1
  0
VPORT
  5
29
330
8
100
AcDbSymbolTableRecord
100
AcDbViewportTableRecord
  2
*Active
 70
     0
 10
0.0
 20
0.0
 11
1.0
 21
1.0
 12
139.7
 22
107.95
 13
0.0
 23
0.0
 14
10.0
 24
10.0
 15
10.0
 25
10.0
 16
0.0
 26
0.0
 36
1.0
 17
0.0
 27
0.0
 37
0.0
 40
215.9
 41
1.2941176471
 42
50.0
 43
0.0
 44
0.0
 50
0.0
 51
0.0
 71
     0
 72
  2000
 73
     1
 74
     3
 75
     0
 76
     0
 77
     0
 78
     0
281
     0
 65
     1
110
0.0
120
0.0
130
0.0
111
1.0
121
0.0
131
0.0
112
0.0
122
1.0
132
0.0
 79
     0
146
0.0
  0
ENDTAB
  0
TABLE
  2
LTYPE
  5
5
330
0
100
AcDbSymbolTable
 70
     6
  0
LTYPE
  5
14
330
5
100
AcDbSymbolTableRecord
100
AcDbLinetypeTableRecord
  2
ByBlock
 70
     0
  3

 72
    65
 73
     0
 40
0.0
  0
LTYPE
  5
15
330
5
100
AcDbSymbolTableRecord
100
AcDbLinetypeTableRecord
  2
ByLayer
 70
     0
  3

 72
    65
 73
     0
 40
0.0
  0
LTYPE
  5
16
330
5
100
AcDbSymbolTableRecord
100
AcDbLinetypeTableRecord
  2
Continuous
 70
     0
  3
Solid line
 72
    65
 73
     0
 40
0.0
  0
LTYPE
  5
6E
330
5
100
AcDbSymbolTableRecord
100
AcDbLinetypeTableRecord
  2
HIDDEN
 70
     0
  3
Hidden __ __ __ __ __ __ __ __ __ __ __ __ __ __
 72
    65
 73
     2
 40
1.905
 49
1.27
 74
     0
 49
-0.635
 74
     0
  0
LTYPE
  5
6F
330
5
100
AcDbSymbolTableRecord
100
AcDbLinetypeTableRecord
  2
PHANTOM
 70
     0
  3
Phantom ______  __  __  ______  __  __  ______
 72
    65
 73
     6
 40
12.7
 49
6.35
 74
     0
 49
-1.27
 74
     0
 49
1.27
 74
     0
 49
-1.27
 74
     0
 49
1.27
 74
     0
 49
-1.27
 74
     0
  0
LTYPE
  5
70
330
5
100
AcDbSymbolTableRecord
100
AcDbLinetypeTableRecord
  2
CENTER
 70
     0
  3
Center ____ _ ____ _ ____ _ ____ _ ____ _ ____
 72
    65
 73
     4
 40
10.16
 49
6.35
 74
     0
 49
-1.27
 74
     0
 49
1.27
 74
     0
 49
-1.27
 74
     0
  0
LTYPE
  5
71
330
5
100
AcDbSymbolTableRecord
100
AcDbLinetypeTableRecord
  2
CENTERX2
 70
     0
  3
Center (2x) ________  __  ________  __  _____
 72
    65
 73
     4
 40
20.32
 49
12.7
 74
     0
 49
-2.54
 74
     0
 49
2.54
 74
     0
 49
-2.54
 74
     0
  0
LTYPE
  5
72
330
5
100
AcDbSymbolTableRecord
100
AcDbLinetypeTableRecord
  2
DOT2
 70
     0
  3
Dot (.5x) ........................................
 72
    65
 73
     2
 40
0.635
 49
0.0
 74
     0
 49
-0.635
 74
     0
  0
ENDTAB
  0
TABLE
  2
LAYER
  5
2
330
0
100
AcDbSymbolTable
 70
    17
  0
LAYER
  5
10
330
2
100
AcDbSymbolTableRecord
100
AcDbLayerTableRecord
  2
0
 70
     0
 62
     7
  6
Continuous
370
    -3
390
F
  0
LAYER
  5
73
330
2
100
AcDbSymbolTableRecord
100
AcDbLayerTableRecord
  2
FORMAT
 70
     0
 62
     7
  6
Continuous
370
    -3
390
F
  0
LAYER
  5
74
330
2
100
AcDbSymbolTableRecord
100
AcDbLayerTableRecord
  2
YARDIMCI_GEOMETRI
 70
     0
 62
    -6
  6
Continuous
290
     0
370
    -3
390
F
  0
LAYER
  5
75
330
2
100
AcDbSymbolTableRecord
100
AcDbLayerTableRecord
  2
SAYFA_CERCEVESI
 70
     0
 62
     7
  6
Continuous
370
    25
390
F
  0
LAYER
  5
76
330
2
100
AcDbSymbolTableRecord
100
AcDbLayerTableRecord
  2
ANTET
 70
     0
 62
     7
  6
Continuous
370
    -3
390
F
  0
LAYER
  5
77
330
2
100
AcDbSymbolTableRecord
100
AcDbLayerTableRecord
  2
OLCU
 70
     0
 62
   150
  6
Continuous
370
    -3
390
F
  0
LAYER
  5
78
330
2
100
AcDbSymbolTableRecord
100
AcDbLayerTableRecord
  2
METIN
 70
     0
 62
    96
  6
Continuous
370
    -3
390
F
  0
LAYER
  5
79
330
2
100
AcDbSymbolTableRecord
100
AcDbLayerTableRecord
  2
BALON
 70
     0
 62
     5
  6
Continuous
370
    -3
390
F
  0
LAYER
  5
7A
330
2
100
AcDbSymbolTableRecord
100
AcDbLayerTableRecord
  2
VURGU
 70
     0
 62
     7
  6
Continuous
370
    -3
390
F
  0
LAYER
  5
7B
330
2
100
AcDbSymbolTableRecord
100
AcDbLayerTableRecord
  2
SILIK
 70
     0
 62
     7
  6
Continuous
370
    -3
390
F
  0
LAYER
  5
7C
330
2
100
AcDbSymbolTableRecord
100
AcDbLayerTableRecord
  2
MODEL
 70
     0
 62
     7
  6
Continuous
370
    -3
390
F
  0
LAYER
  5
7D
330
2
100
AcDbSymbolTableRecord
100
AcDbLayerTableRecord
  2
DETAYLANDıRMA
 70
     0
 62
   190
  6
Continuous
370
    -3
390
F
  0
LAYER
  5
7E
330
2
100
AcDbSymbolTableRecord
100
AcDbLayerTableRecord
  2
TOLERANS
 70
     0
 62
   230
  6
Continuous
370
    -3
390
F
  0
LAYER
  5
7F
330
2
100
AcDbSymbolTableRecord
100
AcDbLayerTableRecord
  2
MERKEZ_CIZGILERI
 70
     0
 62
    30
  6
Continuous
370
    -3
390
F
  0
LAYER
  5
80
330
2
100
AcDbSymbolTableRecord
100
AcDbLayerTableRecord
  2
KESIT-DETAY_CIZGILERI
 70
     0
 62
     7
  6
Continuous
370
    -3
390
F
  0
LAYER
  5
81
330
2
100
AcDbSymbolTableRecord
100
AcDbLayerTableRecord
  2
\U+041E\U+0421\U+0415\U+0412\U+042B\U+0415
 70
     0
 62
     7
  6
Continuous
370
    -3
390
F
  0
LAYER
  5
82
330
2
100
AcDbSymbolTableRecord
100
AcDbLayerTableRecord
  2
\U+0412\U+041E\U+0414\U+042F\U+041D\U+042B\U+0415_\U+0417\U+041D\U+0410\U+041A\U+0418
 70
     0
 62
    11
  6
Continuous
370
    -3
390
F
  0
ENDTAB
  0
TABLE
  2
STYLE
  5
3
330
0
100
AcDbSymbolTable
 70
     1
  0
STYLE
  5
11
330
3
100
AcDbSymbolTableRecord
100
AcDbTextStyleTableRecord
  2
Standard
 70
     0
 40
0.0
 41
1.0
 50
0.0
 71
     0
 42
3.5
  3
txt
  4

  0
ENDTAB
  0
TABLE
  2
VIEW
  5
6
330
0
100
AcDbSymbolTable
 70
     0
  0
ENDTAB
  0
TABLE
  2
UCS
  5
7
330
0
100
AcDbSymbolTable
 70
     0
  0
ENDTAB
  0
TABLE
  2
APPID
  5
9
330
0
100
AcDbSymbolTable
 70
     1
  0
APPID
  5
12
330
9
100
AcDbSymbolTableRecord
100
AcDbRegAppTableRecord
  2
ACAD
 70
     0
  0
ENDTAB
  0
TABLE
  2
DIMSTYLE
  5
A
330
0
100
AcDbSymbolTable
 70
     1
100
AcDbDimStyleTable
  0
DIMSTYLE
105
27
330
A
100
AcDbSymbolTableRecord
100
AcDbDimStyleTableRecord
  2
ISO-25
 70
     0
 41
2.5
 42
0.625
 43
3.75
 44
1.25
 73
     0
 74
     0
 77
     1
 78
     8
140
2.5
141
2.5
143
0.0393700787
147
0.625
171
     3
172
     1
178
     0
271
     2
272
     2
274
     3
278
    44
283
     0
284
     8
340
11
  0
ENDTAB
  0
TABLE
  2
BLOCK_RECORD
  5
1
330
0
100
AcDbSymbolTable
 70
     1
  0
BLOCK_RECORD
  5
1F
330
1
100
AcDbSymbolTableRecord
100
AcDbBlockTableRecord
  2
*Model_Space
340
22
  0
BLOCK_RECORD
  5
1B
330
1
100
AcDbSymbolTableRecord
100
AcDbBlockTableRecord
  2
*Paper_Space
340
1E
  0
BLOCK_RECORD
  5
23
330
1
100
AcDbSymbolTableRecord
100
AcDbBlockTableRecord
  2
*Paper_Space0
340
26
  0
ENDTAB
  0
ENDSEC
  0
SECTION
  2
BLOCKS
  0
BLOCK
  5
20
330
1F
100
AcDbEntity
  8
0
100
AcDbBlockBegin
  2
*Model_Space
 70
     0
 10
0.0
 20
0.0
 30
0.0
  3
*Model_Space
  1

  0
ENDBLK
  5
21
330
1F
100
AcDbEntity
  8
0
100
AcDbBlockEnd
  0
BLOCK
  5
1C
330
1B
100
AcDbEntity
 67
     1
  8
0
100
AcDbBlockBegin
  2
*Paper_Space
 70
     0
 10
0.0
 20
0.0
 30
0.0
  3
*Paper_Space
  1

  0
ENDBLK
  5
1D
330
1B
100
AcDbEntity
 67
     1
  8
0
100
AcDbBlockEnd
  0
BLOCK
  5
24
330
23
100
AcDbEntity
  8
0
100
AcDbBlockBegin
  2
*Paper_Space0
 70
     0
 10
0.0
 20
0.0
 30
0.0
  3
*Paper_Space0
  1

  0
ENDBLK
  5
25
330
23
100
AcDbEntity
  8
0
100
AcDbBlockEnd
  0
ENDSEC
  0
SECTION
  2
ENTITIES
  0
CIRCLE
  5
83
330
1F
100
AcDbEntity
  8
0
  6
Continuous
 62
     7
370
    25
100
AcDbCircle
 10
135.9944086538
 20
118.27271875
 30
0.0
 40
125.0
  0
CIRCLE
  5
84
330
1F
100
AcDbEntity
  8
0
  6
Continuous
 62
     7
370
    25
100
AcDbCircle
 10
135.9944086538
 20
118.27271875
 30
0.0
 40
110.2
  0
CIRCLE
  5
85
330
1F
100
AcDbEntity
  8
0
  6
Continuous
 62
     7
370
    25
100
AcDbCircle
 10
135.9944086538
 20
118.27271875
 30
0.0
 40
144.0
  0
CIRCLE
  5
86
330
1F
100
AcDbEntity
  8
0
  6
Continuous
 62
     7
370
    25
100
AcDbCircle
 10
135.9944086538
 20
118.27271875
 30
0.0
 40
160.0
  0
LINE
  5
87
330
1F
100
AcDbEntity
  8
0
  6
Continuous
 62
     7
370
    25
100
AcDbLine
 10
295.9944086538
 20
381.7991996194
 30
0.0
 11
295.9944086538
 21
406.7991996194
 31
0.0
  0
LINE
  5
88
330
1F
100
AcDbEntity
  8
0
  6
Continuous
 62
     7
370
    25
100
AcDbLine
 10
-24.0055913462
 20
406.7991996194
 30
0.0
 11
-24.0055913462
 21
381.7991996194
 31
0.0
  0
LINE
  5
89
330
1F
100
AcDbEntity
  8
0
  6
Continuous
 62
     7
370
    25
100
AcDbLine
 10
279.9944086538
 20
406.7991996194
 30
0.0
 11
260.9944086538
 21
442.7991996194
 31
0.0
  0
LINE
  5
8A
330
1F
100
AcDbEntity
  8
0
  6
Continuous
 62
     7
370
    25
100
AcDbLine
 10
10.9944086538
 20
442.7991996194
 30
0.0
 11
-8.0055913462
 21
406.7991996194
 31
0.0
  0
LINE
  5
8B
330
1F
100
AcDbEntity
  8
0
  6
Continuous
 62
     7
370
    25
100
AcDbLine
 10
260.9944086538
 20
442.7991996194
 30
0.0
 11
260.9944086538
 21
576.7991996194
 31
0.0
  0
LINE
  5
8C
330
1F
100
AcDbEntity
  8
0
  6
Continuous
 62
     7
370
    25
100
AcDbLine
 10
10.9944086538
 20
576.7991996194
 30
0.0
 11
10.9944086538
 21
442.7991996194
 31
0.0
  0
LINE
  5
8D
330
1F
100
AcDbEntity
  8
0
  6
Continuous
 62
     7
370
    25
100
AcDbLine
 10
295.9944086538
 20
381.7991996194
 30
0.0
 11
-24.0055913462
 21
381.7991996194
 31
0.0
  0
LINE
  5
8E
330
1F
100
AcDbEntity
  8
0
  6
Continuous
 62
     7
370
    25
100
AcDbLine
 10
295.9944086538
 20
406.7991996194
 30
0.0
 11
-24.0055913462
 21
406.7991996194
 31
0.0
  0
LINE
  5
8F
330
1F
100
AcDbEntity
  8
0
  6
Continuous
 62
     7
370
    25
100
AcDbLine
 10
260.9944086538
 20
442.7991996194
 30
0.0
 11
10.9944086538
 21
442.7991996194
 31
0.0
  0
LINE
  5
90
330
1F
100
AcDbEntity
  8
0
  6
Continuous
 62
     7
370
    25
100
AcDbLine
 10
260.9944086538
 20
576.7991996194
 30
0.0
 11
10.9944086538
 21
576.7991996194
 31
0.0
  0
LINE
  5
91
330
1F
100
AcDbEntity
  8
0
  6
Continuous
 62
     7
370
    25
100
AcDbLine
 10
-176.0470694385
 20
278.27271875
 30
0.0
 11
-201.0470694385
 21
278.27271875
 31
0.0
  0
LINE
  5
92
330
1F
100
AcDbEntity
  8
0
  6
Continuous
 62
     7
370
    25
100
AcDbLine
 10
-201.0470694385
 20
-41.72728125
 30
0.0
 11
-176.0470694385
 21
-41.72728125
 31
0.0
  0
LINE
  5
93
330
1F
100
AcDbEntity
  8
0
  6
Continuous
 62
     7
370
    25
100
AcDbLine
 10
-201.0470694385
 20
262.27271875
 30
0.0
 11
-237.0470694385
 21
243.27271875
 31
0.0
  0
LINE
  5
94
330
1F
100
AcDbEntity
  8
0
  6
Continuous
 62
     7
370
    25
100
AcDbLine
 10
-237.0470694385
 20
-6.72728125
 30
0.0
 11
-201.0470694385
 21
-25.72728125
 31
0.0
  0
LINE
  5
95
330
1F
100
AcDbEntity
  8
0
  6
Continuous
 62
     7
370
    25
100
AcDbLine
 10
-237.0470694385
 20
243.27271875
 30
0.0
 11
-371.0470694385
 21
243.27271875
 31
0.0
  0
LINE
  5
96
330
1F
100
AcDbEntity
  8
0
  6
Continuous
 62
     7
370
    25
100
AcDbLine
 10
-371.0470694385
 20
-6.72728125
 30
0.0
 11
-237.0470694385
 21
-6.72728125
 31
0.0
  0
LINE
  5
97
330
1F
100
AcDbEntity
  8
0
  6
Continuous
 62
     7
370
    25
100
AcDbLine
 10
-176.0470694385
 20
278.27271875
 30
0.0
 11
-176.0470694385
 21
-41.72728125
 31
0.0
  0
LINE
  5
98
330
1F
100
AcDbEntity
  8
0
  6
Continuous
 62
     7
370
    25
100
AcDbLine
 10
-201.0470694385
 20
278.27271875
 30
0.0
 11
-201.0470694385
 21
-41.72728125
 31
0.0
  0
LINE
  5
99
330
1F
100
AcDbEntity
  8
0
  6
Continuous
 62
     7
370
    25
100
AcDbLine
 10
-237.0470694385
 20
243.27271875
 30
0.0
 11
-237.0470694385
 21
-6.72728125
 31
0.0
  0
LINE
  5
9A
330
1F
100
AcDbEntity
  8
0
  6
Continuous
 62
     7
370
    25
100
AcDbLine
 10
-371.0470694385
 20
243.27271875
 30
0.0
 11
-371.0470694385
 21
-6.72728125
 31
0.0
  0
LINE
  5
9B
330
1F
100
AcDbEntity
  8
0
  6
Continuous
 62
     7
370
    25
100
AcDbLine
 10
-24.0055913462
 20
-212.6368551218
 30
0.0
 11
-24.0055913462
 21
-237.6368551218
 31
0.0
  0
LINE
  5
9C
330
1F
100
AcDbEntity
  8
0
  6
Continuous
 62
     7
370
    25
100
AcDbLine
 10
295.9944086538
 20
-237.6368551218
 30
0.0
 11
295.9944086538
 21
-212.6368551218
 31
0.0
  0
LINE
  5
9D
330
1F
100
AcDbEntity
  8
0
  6
Continuous
 62
     7
370
    25
100
AcDbLine
 10
-8.0055913462
 20
-237.6368551218
 30
0.0
 11
10.9944086538
 21
-273.6368551218
 31
0.0
  0
LINE
  5
9E
330
1F
100
AcDbEntity
  8
0
  6
Continuous
 62
     7
370
    25
100
AcDbLine
 10
260.9944086538
 20
-273.6368551218
 30
0.0
 11
279.9944086538
 21
-237.6368551218
 31
0.0
  0
LINE
  5
9F
330
1F
100
AcDbEntity
  8
0
  6
Continuous
 62
     7
370
    25
100
AcDbLine
 10
10.9944086538
 20
-273.6368551218
 30
0.0
 11
10.9944086538
 21
-407.6368551218
 31
0.0
  0
LINE
  5
A0
330
1F
100
AcDbEntity
  8
0
  6
Continuous
 62
     7
370
    25
100
AcDbLine
 10
260.9944086538
 20
-407.6368551218
 30
0.0
 11
260.9944086538
 21
-273.6368551218
 31
0.0
  0
LINE
  5
A1
330
1F
100
AcDbEntity
  8
0
  6
Continuous
 62
     7
370
    25
100
AcDbLine
 10
-24.0055913462
 20
-212.6368551218
 30
0.0
 11
295.9944086538
 21
-212.6368551218
 31
0.0
  0
LINE
  5
A2
330
1F
100
AcDbEntity
  8
0
  6
Continuous
 62
     7
370
    25
100
AcDbLine
 10
-24.0055913462
 20
-237.6368551218
 30
0.0
 11
295.9944086538
 21
-237.6368551218
 31
0.0
  0
LINE
  5
A3
330
1F
100
AcDbEntity
  8
0
  6
Continuous
 62
     7
370
    25
100
AcDbLine
 10
10.9944086538
 20
-273.6368551218
 30
0.0
 11
260.9944086538
 21
-273.6368551218
 31
0.0
  0
LINE
  5
A4
330
1F
100
AcDbEntity
  8
0
  6
Continuous
 62
     7
370
    25
100
AcDbLine
 10
10.9944086538
 20
-407.6368551218
 30
0.0
 11
260.9944086538
 21
-407.6368551218
 31
0.0
  0
LINE
  5
A5
330
1F
100
AcDbEntity
  8
0
  6
Continuous
 62
     7
370
    25
100
AcDbLine
 10
413.8478630255
 20
-41.72728125
 30
0.0
 11
438.8478630255
 21
-41.72728125
 31
0.0
  0
LINE
  5
A6
330
1F
100
AcDbEntity
  8
0
  6
Continuous
 62
     7
370
    25
100
AcDbLine
 10
438.8478630255
 20
278.27271875
 30
0.0
 11
413.8478630255
 21
278.27271875
 31
0.0
  0
LINE
  5
A7
330
1F
100
AcDbEntity
  8
0
  6
Continuous
 62
     7
370
    25
100
AcDbLine
 10
438.8478630255
 20
-25.72728125
 30
0.0
 11
474.8478630255
 21
-6.72728125
 31
0.0
  0
LINE
  5
A8
330
1F
100
AcDbEntity
  8
0
  6
Continuous
 62
     7
370
    25
100
AcDbLine
 10
474.8478630255
 20
243.27271875
 30
0.0
 11
438.8478630255
 21
262.27271875
 31
0.0
  0
LINE
  5
A9
330
1F
100
AcDbEntity
  8
0
  6
Continuous
 62
     7
370
    25
100
AcDbLine
 10
474.8478630255
 20
-6.72728125
 30
0.0
 11
608.8478630255
 21
-6.72728125
 31
0.0
  0
LINE
  5
AA
330
1F
100
AcDbEntity
  8
0
  6
Continuous
 62
     7
370
    25
100
AcDbLine
 10
608.8478630255
 20
243.27271875
 30
0.0
 11
474.8478630255
 21
243.27271875
 31
0.0
  0
LINE
  5
AB
330
1F
100
AcDbEntity
  8
0
  6
Continuous
 62
     7
370
    25
100
AcDbLine
 10
413.8478630255
 20
118.27271875
 30
0.0
 11
413.8478630255
 21
278.27271875
 31
0.0
  0
LINE
  5
AC
330
1F
100
AcDbEntity
  8
0
  6
Continuous
 62
     7
370
    25
100
AcDbLine
 10
413.8478630255
 20
-41.72728125
 30
0.0
 11
413.8478630255
 21
118.27271875
 31
0.0
  0
LINE
  5
AD
330
1F
100
AcDbEntity
  8
0
  6
Continuous
 62
     7
370
    25
100
AcDbLine
 10
438.8478630255
 20
118.27271875
 30
0.0
 11
438.8478630255
 21
278.27271875
 31
0.0
  0
LINE
  5
AE
330
1F
100
AcDbEntity
  8
0
  6
Continuous
 62
     7
370
    25
100
AcDbLine
 10
438.8478630255
 20
-41.72728125
 30
0.0
 11
438.8478630255
 21
118.27271875
 31
0.0
  0
LINE
  5
AF
330
1F
100
AcDbEntity
  8
0
  6
Continuous
 62
     7
370
    25
100
AcDbLine
 10
474.8478630255
 20
118.27271875
 30
0.0
 11
474.8478630255
 21
243.27271875
 31
0.0
  0
LINE
  5
B0
330
1F
100
AcDbEntity
  8
0
  6
Continuous
 62
     7
370
    25
100
AcDbLine
 10
474.8478630255
 20
-6.72728125
 30
0.0
 11
474.8478630255
 21
118.27271875
 31
0.0
  0
LINE
  5
B1
330
1F
100
AcDbEntity
  8
0
  6
Continuous
 62
     7
370
    25
100
AcDbLine
 10
608.8478630255
 20
118.27271875
 30
0.0
 11
608.8478630255
 21
243.27271875
 31
0.0
  0
LINE
  5
B2
330
1F
100
AcDbEntity
  8
0
  6
Continuous
 62
     7
370
    25
100
AcDbLine
 10
608.8478630255
 20
-6.72728125
 30
0.0
 11
608.8478630255
 21
118.27271875
 31
0.0
  0
LINE
  5
B3
330
1F
100
AcDbEntity
  8
0
  6
Continuous
 62
     7
370
    25
100
AcDbLine
 10
626.2674764804
 20
-177.0749940479
 30
0.0
 11
531.5151678014
 21
-122.3756505558
 31
0.0
  0
LINE
  5
B4
330
1F
100
AcDbEntity
  8
0
  6
Continuous
 62
     7
370
    25
100
AcDbLine
 10
406.5253262219
 20
-338.887866151
 30
0.0
 11
501.2776349009
 21
-393.5872096431
 31
0.0
  0
LINE
  5
B5
330
1F
100
AcDbEntity
  8
0
  6
Continuous
 62
     7
370
    25
100
AcDbLine
 10
629.1458717518
 20
-168.8126776277
 30
0.0
 11
614.1660073125
 21
-170.0889645991
 31
0.0
  0
LINE
  5
B6
330
1F
100
AcDbEntity
  8
0
  6
Continuous
 62
     7
370
    25
100
AcDbLine
 10
489.176165733
 20
-386.6011801943
 30
0.0
 11
495.5620782246
 21
-400.2116676471
 31
0.0
  0
LINE
  5
B7
330
1F
100
AcDbEntity
  8
0
  6
Continuous
 62
     7
370
    25
100
AcDbLine
 10
686.8995679539
 20
-171.6637312752
 30
0.0
 11
669.2218984242
 21
-161.4586298774
 31
0.0
  0
LINE
  5
B8
330
1F
100
AcDbEntity
  8
0
  6
Continuous
 62
     7
370
    25
100
AcDbLine
 10
509.2349012025
 20
-438.5942658392
 30
0.0
 11
526.9125707321
 21
-448.799367237
 31
0.0
  0
LWPOLYLINE
  5
B9
330
1F
100
AcDbEntity
  8
0
  6
Continuous
 62
     7
370
    25
100
AcDbPolyline
 90
       62
 70
   128
 43
0.0
 10
626.2674764804
 20
-177.0749940479
 10
628.2676914686
 20
-178.3060807693
 10
631.3177746262
 20
-180.5049997494
 10
634.1857678154
 20
-182.9865113677
 10
636.8639394337
 20
-185.7439259077
 10
639.3450696037
 20
-188.7698098673
 10
641.6224696373
 20
-192.0560059982
 10
643.6900000665
 20
-195.5936552967
 10
645.542087195
 20
-199.3732208858
 10
647.1737381231
 20
-203.3845137247
 10
648.5805542086
 20
-207.6167200773
 10
649.7587429239
 20
-212.0584306634
 10
650.7051280806
 20
-216.6976714165
 10
651.4171583916
 20
-221.5219357639
 10
651.892914349
 20
-226.5182183417
 10
652.131113399
 20
-231.6730500555
 10
652.131113399
 20
-236.9725343902
 10
651.892914349
 20
-242.4023848732
 10
651.4171583916
 20
-247.9479635874
 10
650.7051280806
 20
-253.5943206331
 10
649.7587429239
 20
-259.3262344299
 10
648.5805542086
 20
-265.1282527518
 10
647.1737381231
 20
-270.9847343829
 10
645.542087195
 20
-276.8798912843
 10
643.6900000665
 20
-282.7978311553
 10
641.6224696373
 20
-288.7226002761
 10
639.3450696037
 20
-294.6382265168
 10
636.8639394337
 20
-300.5287623949
 10
634.1857678154
 20
-306.378328067
 10
631.3177746262
 20
-312.1711541384
 10
628.2676914686
 20
-317.891624174
 10
625.0437408275
 20
-323.524316798
 10
621.6546139038
 20
-329.054047267
 10
618.1094471847
 20
-334.4659084053
 10
614.4177978126
 20
-339.7453107919
 10
610.5896178218
 20
-344.8780220916
 10
606.6352273087
 20
-349.850205422
 10
602.5652866109
 20
-354.6484566561
 10
598.3907675689
 20
-359.2598405567
 10
594.1229239482
 20
-363.6719256481
 10
589.7732611005
 20
-367.8728177291
 10
585.3535049479
 20
-371.8511919372
 10
580.8755703716
 20
-375.596323279
 10
576.3515290914
 20
-379.0981155425
 10
571.7935771229
 20
-382.3471285148
 10
567.2140018988
 20
-385.3346034315
 10
562.625149144
 20
-388.0524865882
 10
558.0393895945
 20
-390.4934510526
 10
553.4690856472
 20
-392.650916416
 10
548.9265580334
 20
-394.5190665332
 10
544.4240526046
 20
-396.0928652017
 10
539.9737073194
 20
-397.3680697387
 10
535.5875195218
 20
-398.3412424181
 10
531.2773135986
 20
-399.0097597384
 10
527.0547091031
 20
-399.3718194952
 10
522.9310894303
 20
-399.4264456394
 10
518.9175711299
 20
-399.1734909084
 10
515.0249739376
 20
-398.6136372236
 10
511.2637916072
 20
-397.7483938515
 10
507.6441636214
 20
-396.5800933353
 10
504.1758478573
 20
-395.1118852066
 10
501.2776349009
 20
-393.5872096431
  0
LWPOLYLINE
  5
BA
330
1F
100
AcDbEntity
  8
0
  6
Continuous
 62
     7
370
    25
100
AcDbPolyline
 90
      122
 70
   128
 43
0.0
 10
380.6318993633
 20
-281.6572653423
 10
380.7510390425
 20
-276.2907892448
 10
381.1081369006
 20
-270.8012244724
 10
381.7022302649
 20
-265.2033699213
 10
382.5317175648
 20
-259.5123164175
 10
383.594362649
 20
-253.7434060352
 10
384.8873008144
 20
-247.9121907368
 10
386.4070465283
 20
-242.0343904479
 10
388.1495028248
 20
-236.1258506788
 10
390.1099723499
 20
-230.2024998081
 10
392.2831700243
 20
-224.2803061426
 10
394.6632372914
 20
-218.3752348693
 10
397.2437579105
 20
-212.5032050164
 10
400.0177752543
 20
-206.6800465383
 10
402.9778110625
 20
-200.9214576405
 10
406.1158856019
 20
-195.2429624608
 10
409.4235391783
 20
-189.6598692182
 10
412.8918549424
 20
-184.1872289449
 10
416.5114829283
 20
-178.8397949116
 10
420.2726652586
 20
-173.6319828551
 10
424.1652624509
 20
-168.5778321159
 10
428.1787807513
 20
-163.6909677908
 10
432.3024004241
 20
-158.9845640021
 10
436.5250049196
 20
-154.4713083823
 10
440.8352108428
 20
-150.1633678707
 10
445.2213986404
 20
-146.0723559132
 10
449.6717439256
 20
-142.2093011547
 10
454.1742493544
 20
-138.584617708
 10
458.7167769682
 20
-135.2080770788
 10
463.2870809155
 20
-132.0887818236
 10
467.872840465
 20
-129.2351410109
 10
472.4616932198
 20
-126.6548475519
 10
477.0412684439
 20
-124.3548574616
 10
481.5992204124
 20
-122.3413711065
 10
486.1232616926
 20
-120.61981649
 10
490.6011962689
 20
-119.1948346189
 10
495.0209524215
 20
-118.0702669924
 10
499.3706152692
 20
-117.249145246
 10
503.6384588899
 20
-116.7336829788
 10
507.8129779319
 20
-116.5252697858
 10
511.8829186297
 20
-116.6244675123
 10
515.8373091428
 20
-117.0310087387
 10
519.6654891337
 20
-117.7437975017
 10
523.3571385057
 20
-118.7609122488
 10
526.9023052248
 20
-120.0796110185
 10
530.2914321485
 20
-121.6963388321
 10
533.5153827896
 20
-123.6067372771
 10
536.5654659472
 20
-125.8056562572
 10
539.4334591364
 20
-128.2871678756
 10
542.1116307547
 20
-131.0445824156
 10
544.5927609247
 20
-134.0704663752
 10
546.8701609583
 20
-137.3566625061
 10
548.9376913875
 20
-140.8943118046
 10
550.789778516
 20
-144.6738773936
 10
552.4214294441
 20
-148.6851702326
 10
553.8282455296
 20
-152.9173765852
 10
555.0064342449
 20
-157.3590871712
 10
555.9528194016
 20
-161.9983279244
 10
556.6648497126
 20
-166.8225922718
 10
557.14060567
 20
-171.8188748496
 10
557.37880472
 20
-176.9737065633
 10
557.37880472
 20
-182.2731908981
 10
557.14060567
 20
-187.7030413811
 10
556.6648497126
 20
-193.2486200953
 10
555.9528194016
 20
-198.894977141
 10
555.0064342449
 20
-204.6268909378
 10
553.8282455296
 20
-210.4289092596
 10
552.4214294441
 20
-216.2853908908
 10
550.789778516
 20
-222.1805477922
 10
548.9376913875
 20
-228.0984876632
 10
546.8701609583
 20
-234.023256784
 10
544.5927609247
 20
-239.9388830247
 10
542.1116307547
 20
-245.8294189028
 10
539.4334591364
 20
-251.6789845749
 10
536.5654659472
 20
-257.4718106462
 10
533.5153827896
 20
-263.1922806818
 10
530.2914321485
 20
-268.8249733059
 10
526.9023052248
 20
-274.3547037749
 10
523.3571385057
 20
-279.7665649131
 10
519.6654891337
 20
-285.0459672998
 10
515.8373091428
 20
-290.1786785995
 10
511.8829186297
 20
-295.1508619299
 10
507.8129779319
 20
-299.949113164
 10
503.6384588899
 20
-304.5604970646
 10
499.3706152692
 20
-308.972582156
 10
495.0209524215
 20
-313.173474237
 10
490.6011962689
 20
-317.1518484451
 10
486.1232616926
 20
-320.8969797869
 10
481.5992204124
 20
-324.3987720504
 10
477.0412684439
 20
-327.6477850227
 10
472.4616932198
 20
-330.6352599393
 10
467.872840465
 20
-333.3531430961
 10
463.2870809155
 20
-335.7941075605
 10
458.7167769682
 20
-337.9515729239
 10
454.1742493544
 20
-339.819723041
 10
449.6717439256
 20
-341.3935217096
 10
445.2213986404
 20
-342.6687262466
 10
440.8352108428
 20
-343.641898926
 10
436.5250049196
 20
-344.3104162463
 10
432.3024004241
 20
-344.6724760031
 10
428.1787807513
 20
-344.7271021472
 10
424.1652624509
 20
-344.4741474163
 10
420.2726652586
 20
-343.9142937315
 10
416.5114829283
 20
-343.0490503594
 10
412.8918549424
 20
-341.8807498432
 10
409.4235391783
 20
-340.4125417145
 10
406.1158856019
 20
-338.6483840028
 10
402.9778110625
 20
-336.5930325655
 10
400.0177752543
 20
-334.2520282666
 10
397.2437579105
 20
-331.6316820398
 10
394.6632372914
 20
-328.7390578753
 10
392.2831700243
 20
-325.5819537764
 10
390.1099723499
 20
-322.1688807377
 10
388.1495028248
 20
-318.5090398005
 10
386.4070465283
 20
-314.6122972491
 10
384.8873008144
 20
-310.4891580123
 10
383.594362649
 20
-306.1507373447
 10
382.5317175648
 20
-301.6087308613
 10
381.7022302649
 20
-296.8753830086
 10
381.1081369006
 20
-291.9634540555
 10
380.7510390425
 20
-286.8861856941
 10
380.6318993633
 20
-281.6572653423
  0
LWPOLYLINE
  5
BB
330
1F
100
AcDbEntity
  8
0
  6
Continuous
 62
     7
370
    25
100
AcDbPolyline
 90
      114
 70
   128
 43
0.0
 10
391.0970797249
 20
-275.6158453148
 10
391.2175077471
 20
-270.5455511121
 10
391.5784195777
 20
-265.3518856633
 10
392.1786996589
 20
-260.0509022908
 10
393.0164925594
 20
-254.6589860302
 10
394.0892087093
 20
-249.1928029859
 10
395.3935324044
 20
-243.6692488163
 10
396.925432055
 20
-238.1053965109
 10
398.6801726471
 20
-232.5184436181
 10
400.652330378
 20
-226.9256590894
 10
402.8358094212
 20
-221.3443299011
 10
405.2238607681
 20
-215.7917076219
 10
407.8091030889
 20
-210.284955089
 10
410.5835455477
 20
-204.841093359
 10
413.5386125018
 20
-199.4769490966
 10
416.6651700087
 20
-194.2091025641
 10
419.9535540582
 20
-189.0538363733
 10
423.3936004438
 20
-184.0270851567
 10
426.9746761792
 20
-179.1443863141
 10
430.6857123644
 20
-174.4208319879
 10
434.5152383994
 20
-169.8710224137
 10
438.4514174386
 20
-165.5090207923
 10
442.4820829782
 20
-161.3483098207
 10
446.594776462
 20
-157.401750018
 10
450.7767857901
 20
-153.6815399744
 10
455.0151846113
 20
-150.1991786459
 10
459.2968722779
 20
-146.965429812
 10
463.6086143385
 20
-143.9902888049
 10
467.9370834455
 20
-141.2829516149
 10
472.2689005491
 20
-138.8517864661
 10
476.5906762508
 20
-136.7043079508
 10
480.8890521895
 20
-134.8471538019
 10
485.1507423316
 20
-133.2860643765
 10
489.3625740371
 20
-132.0258649125
 10
493.5115287755
 20
-131.0704506142
 10
497.5847823655
 20
-130.4227746126
 10
501.5697446137
 20
-130.084838837
 10
505.4540982301
 20
-130.0576878274
 10
509.2258369004
 20
-130.3414055062
 10
512.8733023964
 20
-130.9351149183
 10
516.3852206113
 20
-131.8369809418
 10
519.7507364072
 20
-133.0442159606
 10
522.9594471677
 20
-134.5530884804
 10
526.0014349515
 20
-136.3589346627
 10
528.867297149
 20
-138.4561727406
 10
531.5481755441
 20
-140.8383202711
 10
534.0357836955
 20
-143.498014173
 10
536.3224325489
 20
-146.4270334847
 10
538.4010542037
 20
-149.6163247753
 10
540.2652237595
 20
-153.0560301284
 10
541.9091791751
 20
-156.7355176117
 10
543.3278390785
 20
-160.6434141403
 10
544.5168184732
 20
-164.76764063
 10
545.472442292
 20
-169.0954493331
 10
546.1917567565
 20
-173.6134632408
 10
546.6725385069
 20
-178.3077174312
 10
546.9133014744
 20
-183.1637022335
 10
546.9133014744
 20
-188.166408077
 10
546.6725385069
 20
-193.3003718845
 10
546.1917567565
 20
-198.5497248683
 10
545.472442292
 20
-203.8982415791
 10
544.5168184732
 20
-209.3293900581
 10
543.3278390785
 20
-214.8263829368
 10
541.9091791751
 20
-220.3722293251
 10
540.2652237595
 20
-225.9497873297
 10
538.4010542037
 20
-231.5418170384
 10
536.3224325489
 20
-237.1310338078
 10
534.0357836955
 20
-242.7001616893
 10
531.5481755441
 20
-248.2319868277
 10
528.867297149
 20
-253.7094106685
 10
526.0014349515
 20
-259.1155028085
 10
522.9594471677
 20
-264.4335533268
 10
519.7507364072
 20
-269.6471244339
 10
516.3852206113
 20
-274.7401012803
 10
512.8733023964
 20
-279.6967417665
 10
509.2258369004
 20
-284.5017252007
 10
505.4540982301
 20
-289.1401996546
 10
501.5697446137
 20
-293.5978278694
 10
497.5847823655
 20
-297.8608315718
 10
493.5115287755
 20
-301.9160340616
 10
489.3625740371
 20
-305.7509009403
 10
485.1507423316
 20
-309.3535788542
 10
480.8890521895
 20
-312.7129321322
 10
476.5906762508
 20
-315.818577206
 10
472.2689005491
 20
-318.6609147046
 10
467.9370834455
 20
-321.2311591257
 10
463.6086143385
 20
-323.521365991
 10
459.2968722779
 20
-325.5244564024
 10
455.0151846113
 20
-327.2342389222
 10
450.7767857901
 20
-328.6454287106
 10
446.594776462
 20
-329.7536638609
 10
442.4820829782
 20
-330.5555188817
 10
438.4514174386
 20
-331.0485152851
 10
434.5152383994
 20
-331.2311292475
 10
430.6857123644
 20
-331.1027963196
 10
426.9746761792
 20
-330.6639131711
 10
423.3936004438
 20
-329.9158363646
 10
419.9535540582
 20
-328.8608781628
 10
416.6651700087
 20
-327.5022993809
 10
413.5386125018
 20
-325.8442993081
 10
410.5835455477
 20
-323.8920027276
 10
407.8091030889
 20
-321.6514440763
 10
405.2238607681
 20
-319.1295487926
 10
402.8358094212
 20
-316.3341119102
 10
400.652330378
 20
-313.2737739643
 10
398.6801726471
 20
-309.9579942843
 10
396.925432055
 20
-306.3970217549
 10
395.3935324044
 20
-302.6018631384
 10
394.0892087093
 20
-298.5842490524
 10
393.0164925594
 20
-294.3565977118
 10
392.1786996589
 20
-289.9319765447
 10
391.5784195777
 20
-285.3240618015
 10
391.2175077471
 20
-280.5470962827
 10
391.0970797249
 20
-275.6158453148
  0
ARC
  5
BC
330
1F
100
AcDbEntity
  8
0
  6
Continuous
 62
     7
370
    25
100
AcDbCircle
 10
672.0630399671
 20
-347.8458677541
 30
0.0
 40
183.3244966185364
100
AcDbArc
 50
134.9680375074
 51
165.0373390253
  0
LWPOLYLINE
  5
BD
330
1F
100
AcDbEntity
  8
0
  6
Continuous
 62
     7
370
    25
100
AcDbPolyline
 90
       83
 70
   128
 43
0.0
 10
629.1458717518
 20
-168.8126776277
 10
629.8930501629
 20
-168.7530978321
 10
634.3556594185
 20
-168.5714736069
 10
638.7128718683
 20
-168.696868565
 10
642.9545110407
 20
-169.1289898409
 10
647.0706703909
 20
-169.866828195
 10
651.0517364381
 20
-170.9086603719
 10
654.888411218
 20
-172.2520531242
 10
658.5717339988
 20
-173.8938688959
 10
662.0931022097
 20
-175.8302731501
 10
665.4442915318
 20
-178.0567433251
 10
668.6174751074
 20
-180.5680793964
 10
671.6052418191
 20
-183.3584160225
 10
674.4006135993
 20
-186.4212362428
 10
676.9970617278
 20
-189.7493866987
 10
679.3885220795
 20
-193.3350943407
 10
681.5694092881
 20
-197.1699845824
 10
683.5346297905
 20
-201.24510086
 10
685.279593723
 20
-205.5509255506
 10
686.8002256415
 20
-210.0774022011
 10
688.0929740398
 20
-214.8139590155
 10
689.1548196441
 20
-219.749533546
 10
689.9832824648
 20
-224.8725985295
 10
690.5764275885
 20
-230.1711888104
 10
690.9328696973
 20
-235.6329292856
 10
691.0517763042
 20
-241.2450638071
 10
690.9328696973
 20
-246.9944849747
 10
690.5764275885
 20
-252.8677647489
 10
689.9832824648
 20
-258.8511858125
 10
689.1548196441
 20
-264.9307736086
 10
688.0929740398
 20
-271.0923289781
 10
686.8002256415
 20
-277.3214613228
 10
685.279593723
 20
-283.6036222157
 10
683.5346297905
 20
-289.9241393788
 10
681.5694092881
 20
-296.2682509514
 10
679.3885220795
 20
-302.6211399671
 10
676.9970617278
 20
-308.9679689591
 10
674.4006135993
 20
-315.2939146143
 10
671.6052418191
 20
-321.5842023935
 10
668.6174751074
 20
-327.824141038
 10
665.4442915318
 20
-333.9991568821
 10
662.0931022097
 20
-340.0948278902
 10
658.5717339988
 20
-346.0969173401
 10
654.888411218
 20
-351.9914070738
 10
651.0517364381
 20
-357.7645302375
 10
647.0706703909
 20
-363.4028034344
 10
642.9545110407
 20
-368.8930582164
 10
638.7128718683
 20
-374.2224718389
 10
634.3556594185
 20
-379.3785972095
 10
629.8930501629
 20
-384.3493919585
 10
625.3354667322
 20
-389.1232465644
 10
620.6935535737
 20
-393.6890114685
 10
615.9781520906
 20
-398.0360231155
 10
611.2002753216
 20
-402.1541288582
 10
606.3710822193
 20
-406.0337106698
 10
601.5018515879
 20
-409.6657076072
 10
596.6039557413
 20
-413.0416369732
 10
591.688833942
 20
-416.1536141285
 10
586.7679656847
 20
-418.9943709062
 10
581.8528438854
 20
-421.5572725872
 10
576.9549480388
 20
-423.8363333959
 10
572.0857174074
 20
-425.8262304801
 10
567.2565243051
 20
-427.522316343
 10
562.4786475361
 20
-428.9206296975
 10
557.763246053
 20
-430.017904718
 10
553.1213328945
 20
-430.8115786677
 10
548.5637494638
 20
-431.2997978845
 10
544.1011402082
 20
-431.4814221097
 10
539.7439277584
 20
-431.3560271516
 10
535.502288586
 20
-430.9239058758
 10
531.3861292358
 20
-430.1860675216
 10
527.4050631886
 20
-429.1442353447
 10
523.5683884087
 20
-427.8008425924
 10
519.8850656279
 20
-426.1590268207
 10
516.363697417
 20
-424.2226225665
 10
513.0125080949
 20
-421.9961523916
 10
509.8393245193
 20
-419.4848163202
 10
506.8515578076
 20
-416.6944796941
 10
504.0561860274
 20
-413.6316594738
 10
501.4597378989
 20
-410.3035090179
 10
499.0682775472
 20
-406.7178013759
 10
496.8873903386
 20
-402.8829111342
 10
495.5620782246
 20
-400.2116676471
  0
LWPOLYLINE
  5
BE
330
1F
100
AcDbEntity
  8
0
  6
Continuous
 62
     7
370
    25
100
AcDbPolyline
 90
       70
 70
   128
 43
0.0
 10
686.8995679539
 20
-171.6637312752
 10
689.1660255326
 20
-173.0484523662
 10
692.6406311693
 20
-175.491923192
 10
695.9349356922
 20
-178.2187535421
 10
699.0420111278
 20
-181.22320885
 10
701.9553232481
 20
-184.4989706995
 10
704.6687453126
 20
-188.0391501127
 10
707.1765709526
 20
-191.8363020373
 10
709.4735261718
 20
-195.8824410039
 10
711.5547804378
 20
-200.1690579195
 10
713.4159568406
 20
-204.6871379622
 10
715.0531412973
 20
-209.4271795395
 10
716.4628907836
 20
-214.3792142705
 10
717.6422405744
 20
-219.5328279493
 10
718.5887104789
 20
-224.8771824463
 10
719.3003100561
 20
-230.4010385012
 10
719.7755428011
 20
-236.0927793588
 10
720.013409292
 20
-241.9404352
 10
720.013409292
 20
-247.9317083137
 10
719.7755428011
 20
-254.0539989595
 10
719.3003100561
 20
-260.2944318654
 10
718.5887104789
 20
-266.6398833039
 10
717.6422405744
 20
-273.0770086924
 10
716.4628907836
 20
-279.5922706561
 10
715.0531412973
 20
-286.1719674982
 10
713.4159568406
 20
-292.8022620141
 10
711.5547804378
 20
-299.4692105915
 10
709.4735261718
 20
-306.158792534
 10
707.1765709526
 20
-312.8569395472
 10
704.6687453126
 20
-319.5495653238
 10
701.9553232481
 20
-326.2225951681
 10
699.0420111278
 20
-332.8619955947
 10
695.9349356922
 20
-339.4538038415
 10
692.6406311693
 20
-345.9841572334
 10
689.1660255326
 20
-352.439322336
 10
685.5184259316
 20
-358.805723837
 10
681.7055033249
 20
-365.069973095
 10
677.7352763479
 20
-371.2188962968
 10
673.6160944495
 20
-377.2395621615
 10
669.3566203332
 20
-383.1193091352
 10
664.9658117391
 20
-388.845772019
 10
660.4529026059
 20
-394.4069079725
 10
655.8273836514
 20
-399.7910218404
 10
651.0989824139
 20
-404.9867907479
 10
646.2776427945
 20
-409.9832879122
 10
641.3735041451
 20
-414.7700056223
 10
636.3968799456
 20
-419.3368773366
 10
631.3582361138
 20
-423.6742988529
 10
626.2681689958
 20
-427.7731485066
 10
621.1373830818
 20
-431.6248063532
 10
615.9766684942
 20
-435.2211722965
 10
610.7968782959
 20
-438.5546831232
 10
605.6089056659
 20
-441.6183284081
 10
600.4236609913
 20
-444.4056652579
 10
595.252048922
 20
-446.9108318597
 10
590.1049454385
 20
-449.1285598094
 10
584.9931749793
 20
-451.0541851907
 10
579.9274876769
 20
-452.6836583835
 10
574.9185367505
 20
-454.0135525804
 10
569.9768561013
 20
-455.0410709933
 10
565.1128381607
 20
-455.764052735
 10
560.3367120337
 20
-456.1809773638
 10
555.6585219878
 20
-456.2909680806
 10
551.0881063291
 20
-456.0937935732
 10
546.6350767128
 20
-455.5898685027
 10
542.3087979291
 20
-454.7802526314
 10
538.1183682096
 20
-453.6666485939
 10
534.0726000929
 20
-452.2513983169
 10
530.1800018922
 20
-450.5374780937
 10
526.9125707321
 20
-448.799367237
  0
LWPOLYLINE
  5
BF
330
1F
100
AcDbEntity
  8
0
  6
Continuous
 62
     7
370
    25
100
AcDbPolyline
 90
      100
 70
   128
 43
0.0
 10
601.7818017585
 20
-162.9397149088
 10
603.4597135521
 20
-162.2020656647
 10
608.5904994661
 20
-160.1298441884
 10
613.6805665841
 20
-158.3518274403
 10
618.7192104159
 20
-156.8717546172
 10
623.6958346155
 20
-155.6927383354
 10
628.5999732648
 20
-154.8172580842
 10
633.4213128843
 20
-154.2471550123
 10
638.1497141218
 20
-153.9836280553
 10
642.7752330762
 20
-154.0272314144
 10
647.2881422094
 20
-154.3778733912
 10
651.6789508035
 20
-155.03481658
 10
655.9384249198
 20
-155.9966794192
 10
660.0576068182
 20
-157.2614390963
 10
664.0278337952
 20
-158.826435802
 10
667.8407564019
 20
-160.6883783241
 10
671.4883560029
 20
-162.8433509685
 10
674.9629616397
 20
-165.2868217942
 10
678.2572661626
 20
-168.0136521443
 10
681.3643415981
 20
-171.0181074522
 10
684.2776537184
 20
-174.2938693017
 10
686.9910757829
 20
-177.8340487149
 10
689.4989014229
 20
-181.6312006395
 10
691.7958566421
 20
-185.6773396061
 10
693.8771109081
 20
-189.9639565217
 10
695.7382873109
 20
-194.4820365644
 10
697.3754717676
 20
-199.2220781417
 10
698.7852212539
 20
-204.1741128727
 10
699.9645710447
 20
-209.3277265515
 10
700.9110409492
 20
-214.6720810485
 10
701.6226405264
 20
-220.1959371034
 10
702.0978732714
 20
-225.8876779611
 10
702.3357397624
 20
-231.7353338022
 10
702.3357397624
 20
-237.7266069159
 10
702.0978732714
 20
-243.8488975618
 10
701.6226405264
 20
-250.0893304676
 10
700.9110409492
 20
-256.4347819061
 10
699.9645710447
 20
-262.8719072946
 10
698.7852212539
 20
-269.3871692584
 10
697.3754717676
 20
-275.9668661005
 10
695.7382873109
 20
-282.5971606163
 10
693.8771109081
 20
-289.2641091937
 10
691.7958566421
 20
-295.9536911363
 10
689.4989014229
 20
-302.6518381494
 10
686.9910757829
 20
-309.3444639261
 10
684.2776537184
 20
-316.0174937703
 10
681.3643415981
 20
-322.6568941969
 10
678.2572661626
 20
-329.2487024437
 10
674.9629616397
 20
-335.7790558356
 10
671.4883560029
 20
-342.2342209383
 10
667.8407564019
 20
-348.6006224392
 10
664.0278337952
 20
-354.8648716972
 10
660.0576068182
 20
-361.013794899
 10
655.9384249198
 20
-367.0344607637
 10
651.6789508035
 20
-372.9142077375
 10
647.2881422094
 20
-378.6406706212
 10
642.7752330762
 20
-384.2018065747
 10
638.1497141218
 20
-389.5859204427
 10
633.4213128842
 20
-394.7816893501
 10
628.5999732648
 20
-399.7781865144
 10
623.6958346155
 20
-404.5649042245
 10
618.7192104159
 20
-409.1317759388
 10
613.6805665841
 20
-413.4691974551
 10
608.5904994661
 20
-417.5680471088
 10
603.4597135521
 20
-421.4197049554
 10
598.2989989645
 20
-425.0160708988
 10
593.1192087662
 20
-428.3495817254
 10
587.9312361362
 20
-431.4132270104
 10
582.7459914616
 20
-434.2005638601
 10
577.5743793924
 20
-436.7057304619
 10
572.4272759089
 20
-438.9234584116
 10
567.3155054496
 20
-440.8490837929
 10
562.2498181473
 20
-442.4785569857
 10
557.2408672208
 20
-443.8084511826
 10
552.2991865717
 20
-444.8359695955
 10
547.435168631
 20
-445.5589513373
 10
542.6590425041
 20
-445.975875966
 10
537.9808524581
 20
-446.0858666828
 10
533.4104367994
 20
-445.8886921754
 10
528.9574071831
 20
-445.3847671049
 10
524.6311283995
 20
-444.5751512336
 10
520.4406986799
 20
-443.4615471961
 10
516.3949305633
 20
-442.0462969191
 10
512.5023323626
 20
-440.3323766959
 10
508.7710902723
 20
-438.3233909272
 10
505.2090511523
 20
-436.0235645413
 10
501.8237060263
 20
-433.4377341089
 10
498.6221743276
 20
-430.5713376713
 10
495.611188927
 20
-427.4304033048
 10
492.7970819735
 20
-424.0215364432
 10
490.1857715777
 20
-420.3519059862
 10
487.782749366
 20
-416.4292292238
 10
485.5930689312
 20
-412.2617556059
 10
483.6213352053
 20
-407.8582493944
 10
481.871694775
 20
-403.227971231
 10
480.3478271612
 20
-398.3806586626
 10
479.0529370811
 20
-393.3265056627
 10
477.9897477088
 20
-388.0761411936
 10
477.1604949478
 20
-382.6406068532
 10
476.791960179
 20
-379.451930504
  0
ENDSEC
  0
SECTION
  2
OBJECTS
  0
DICTIONARY
  5
C
330
0
100
AcDbDictionary
281
     1
  3
ACAD_GROUP
350
D
  3
ACAD_LAYOUT
350
1A
  3
ACAD_MLINESTYLE
350
17
  3
ACAD_PLOTSETTINGS
350
19
  3
ACAD_PLOTSTYLENAME
350
E
  3
ACAD_SCALELIST
350
47
  0
DICTIONARY
  5
D
102
{ACAD_REACTORS
330
C
102
}
330
C
100
AcDbDictionary
281
     1
  0
DICTIONARY
  5
1A
102
{ACAD_REACTORS
330
C
102
}
330
C
100
AcDbDictionary
281
     1
  3
Layout1
350
1E
  3
Layout2
350
26
  3
Model
350
22
  0
DICTIONARY
  5
17
102
{ACAD_REACTORS
330
C
102
}
330
C
100
AcDbDictionary
281
     1
  3
Standard
350
18
  0
DICTIONARY
  5
19
102
{ACAD_REACTORS
330
C
102
}
330
C
100
AcDbDictionary
281
     1
  0
ACDBDICTIONARYWDFLT
  5
E
102
{ACAD_REACTORS
330
C
102
}
330
C
100
AcDbDictionary
281
     1
  3
Normal
350
F
100
AcDbDictionaryWithDefault
340
F
  0
DICTIONARY
  5
47
102
{ACAD_REACTORS
330
C
102
}
330
C
100
AcDbDictionary
281
     1
  3
A0
350
48
  3
A1
350
49
  3
A2
350
4A
  3
A3
350
4B
  3
A4
350
4C
  3
A5
350
4D
  3
A6
350
4E
  3
A7
350
4F
  3
A8
350
50
  3
A9
350
51
  3
B0
350
52
  3
B1
350
53
  3
B2
350
54
  3
B3
350
55
  3
B4
350
56
  3
B5
350
57
  3
B6
350
58
  3
B7
350
59
  3
B8
350
5A
  3
B9
350
5B
  3
C0
350
5C
  3
C1
350
5D
  3
C2
350
5E
  3
C3
350
5F
  3
C4
350
60
  3
C5
350
61
  3
C6
350
62
  3
C7
350
63
  3
C8
350
64
  3
C9
350
65
  3
D0
350
66
  3
D1
350
67
  3
D2
350
68
  0
LAYOUT
  5
1E
102
{ACAD_REACTORS
330
1A
102
}
330
1A
100
AcDbPlotSettings
  1

  2
none_device
  4

  6

 40
0.0
 41
0.0
 42
0.0
 43
0.0
 44
0.0
 45
0.0
 46
0.0
 47
0.0
 48
0.0
 49
0.0
140
0.0
141
0.0
142
1.0
143
1.0
 70
   688
 72
     1
 73
     0
 74
     5
  7

 75
    16
147
1.0
148
0.0
149
0.0
100
AcDbLayout
  1
Layout1
 70
     1
 71
     1
 10
0.0
 20
0.0
 11
420.0
 21
297.0
 12
0.0
 22
0.0
 32
0.0
 14
1.0000000000E+20
 24
1.0000000000E+20
 34
1.0000000000E+20
 15
-1.0000000000E+20
 25
-1.0000000000E+20
 35
-1.0000000000E+20
146
0.0
 13
0.0
 23
0.0
 33
0.0
 16
1.0
 26
0.0
 36
0.0
 17
0.0
 27
1.0
 37
0.0
 76
     0
330
1B
  0
LAYOUT
  5
26
102
{ACAD_REACTORS
330
1A
102
}
330
1A
100
AcDbPlotSettings
  1

  2
none_device
  4

  6

 40
0.0
 41
0.0
 42
0.0
 43
0.0
 44
0.0
 45
0.0
 46
0.0
 47
0.0
 48
0.0
 49
0.0
140
0.0
141
0.0
142
1.0
143
1.0
 70
   688
 72
     1
 73
     0
 74
     5
  7

 75
    16
147
1.0
148
0.0
149
0.0
100
AcDbLayout
  1
Layout2
 70
     1
 71
     2
 10
0.0
 20
0.0
 11
0.0
 21
0.0
 12
0.0
 22
0.0
 32
0.0
 14
0.0
 24
0.0
 34
0.0
 15
0.0
 25
0.0
 35
0.0
146
0.0
 13
0.0
 23
0.0
 33
0.0
 16
1.0
 26
0.0
 36
0.0
 17
0.0
 27
1.0
 37
0.0
 76
     0
330
23
  0
LAYOUT
  5
22
102
{ACAD_REACTORS
330
1A
102
}
330
1A
100
AcDbPlotSettings
  1

  2
none_device
  4
Letter_(8.50_x_11.00_Inches)
  6

 40
6.35
 41
6.35
 42
6.35000508
 43
6.35000508
 44
215.9
 45
279.4
 46
0.0
 47
0.0
 48
0.0
 49
0.0
140
0.0
141
0.0
142
1.0
143
1.0
 70
  1712
 72
     1
 73
     0
 74
     0
  7

 75
     0
147
1.0
148
0.0
149
0.0
100
AcDbLayout
  1
Model
 70
     1
 71
     0
 10
0.0
 20
0.0
 11
279.4
 21
215.9
 12
0.0
 22
0.0
 32
0.0
 14
0.0
 24
0.0
 34
0.0
 15
279.4
 25
215.9
 35
0.0
146
0.0
 13
0.0
 23
0.0
 33
0.0
 16
1.0
 26
0.0
 36
0.0
 17
0.0
 27
1.0
 37
0.0
 76
     0
330
1F
331
29
  0
MLINESTYLE
  5
18
102
{ACAD_REACTORS
330
17
102
}
330
17
100
AcDbMlineStyle
  2
Standard
 70
     0
  3

 62
   256
 51
90.0
 52
90.0
 71
     2
 49
0.5
 62
   256
  6
BYLAYER
 49
-0.5
 62
   256
  6
BYLAYER
  0
ACDBPLACEHOLDER
  5
F
102
{ACAD_REACTORS
330
E
102
}
330
E
  0
SCALE
  5
48
102
{ACAD_REACTORS
330
47
102
}
330
47
100
AcDbScale
 70
     0
300
1:1
140
1.0
141
1.0
290
     1
  0
SCALE
  5
49
102
{ACAD_REACTORS
330
47
102
}
330
47
100
AcDbScale
 70
     0
300
1:2
140
1.0
141
2.0
290
     0
  0
SCALE
  5
4A
102
{ACAD_REACTORS
330
47
102
}
330
47
100
AcDbScale
 70
     0
300
1:4
140
1.0
141
4.0
290
     0
  0
SCALE
  5
4B
102
{ACAD_REACTORS
330
47
102
}
330
47
100
AcDbScale
 70
     0
300
1:5
140
1.0
141
5.0
290
     0
  0
SCALE
  5
4C
102
{ACAD_REACTORS
330
47
102
}
330
47
100
AcDbScale
 70
     0
300
1:8
140
1.0
141
8.0
290
     0
  0
SCALE
  5
4D
102
{ACAD_REACTORS
330
47
102
}
330
47
100
AcDbScale
 70
     0
300
1:10
140
1.0
141
10.0
290
     0
  0
SCALE
  5
4E
102
{ACAD_REACTORS
330
47
102
}
330
47
100
AcDbScale
 70
     0
300
1:16
140
1.0
141
16.0
290
     0
  0
SCALE
  5
4F
102
{ACAD_REACTORS
330
47
102
}
330
47
100
AcDbScale
 70
     0
300
1:20
140
1.0
141
20.0
290
     0
  0
SCALE
  5
50
102
{ACAD_REACTORS
330
47
102
}
330
47
100
AcDbScale
 70
     0
300
1:30
140
1.0
141
30.0
290
     0
  0
SCALE
  5
51
102
{ACAD_REACTORS
330
47
102
}
330
47
100
AcDbScale
 70
     0
300
1:40
140
1.0
141
40.0
290
     0
  0
SCALE
  5
52
102
{ACAD_REACTORS
330
47
102
}
330
47
100
AcDbScale
 70
     0
300
1:50
140
1.0
141
50.0
290
     0
  0
SCALE
  5
53
102
{ACAD_REACTORS
330
47
102
}
330
47
100
AcDbScale
 70
     0
300
1:100
140
1.0
141
100.0
290
     0
  0
SCALE
  5
54
102
{ACAD_REACTORS
330
47
102
}
330
47
100
AcDbScale
 70
     0
300
2:1
140
2.0
141
1.0
290
     0
  0
SCALE
  5
55
102
{ACAD_REACTORS
330
47
102
}
330
47
100
AcDbScale
 70
     0
300
4:1
140
4.0
141
1.0
290
     0
  0
SCALE
  5
56
102
{ACAD_REACTORS
330
47
102
}
330
47
100
AcDbScale
 70
     0
300
8:1
140
8.0
141
1.0
290
     0
  0
SCALE
  5
57
102
{ACAD_REACTORS
330
47
102
}
330
47
100
AcDbScale
 70
     0
300
10:1
140
10.0
141
1.0
290
     0
  0
SCALE
  5
58
102
{ACAD_REACTORS
330
47
102
}
330
47
100
AcDbScale
 70
     0
300
100:1
140
100.0
141
1.0
290
     0
  0
SCALE
  5
59
102
{ACAD_REACTORS
330
47
102
}
330
47
100
AcDbScale
 70
     0
300
1/128" = 1'-0"
140
0.0078125
141
12.0
290
     0
  0
SCALE
  5
5A
102
{ACAD_REACTORS
330
47
102
}
330
47
100
AcDbScale
 70
     0
300
1/64" = 1'-0"
140
0.015625
141
12.0
290
     0
  0
SCALE
  5
5B
102
{ACAD_REACTORS
330
47
102
}
330
47
100
AcDbScale
 70
     0
300
1/32" = 1'-0"
140
0.03125
141
12.0
290
     0
  0
SCALE
  5
5C
102
{ACAD_REACTORS
330
47
102
}
330
47
100
AcDbScale
 70
     0
300
1/16" = 1'-0"
140
0.0625
141
12.0
290
     0
  0
SCALE
  5
5D
102
{ACAD_REACTORS
330
47
102
}
330
47
100
AcDbScale
 70
     0
300
3/32" = 1'-0"
140
0.09375
141
12.0
290
     0
  0
SCALE
  5
5E
102
{ACAD_REACTORS
330
47
102
}
330
47
100
AcDbScale
 70
     0
300
1/8" = 1'-0"
140
0.125
141
12.0
290
     0
  0
SCALE
  5
5F
102
{ACAD_REACTORS
330
47
102
}
330
47
100
AcDbScale
 70
     0
300
3/16" = 1'-0"
140
0.1875
141
12.0
290
     0
  0
SCALE
  5
60
102
{ACAD_REACTORS
330
47
102
}
330
47
100
AcDbScale
 70
     0
300
1/4" = 1'-0"
140
0.25
141
12.0
290
     0
  0
SCALE
  5
61
102
{ACAD_REACTORS
330
47
102
}
330
47
100
AcDbScale
 70
     0
300
3/8" = 1'-0"
140
0.375
141
12.0
290
     0
  0
SCALE
  5
62
102
{ACAD_REACTORS
330
47
102
}
330
47
100
AcDbScale
 70
     0
300
1/2" = 1'-0"
140
0.5
141
12.0
290
     0
  0
SCALE
  5
63
102
{ACAD_REACTORS
330
47
102
}
330
47
100
AcDbScale
 70
     0
300
3/4" = 1'-0"
140
0.75
141
12.0
290
     0
  0
SCALE
  5
64
102
{ACAD_REACTORS
330
47
102
}
330
47
100
AcDbScale
 70
     0
300
1" = 1'-0"
140
1.0
141
12.0
290
     0
  0
SCALE
  5
65
102
{ACAD_REACTORS
330
47
102
}
330
47
100
AcDbScale
 70
     0
300
1-1/2" = 1'-0"
140
1.5
141
12.0
290
     0
  0
SCALE
  5
66
102
{ACAD_REACTORS
330
47
102
}
330
47
100
AcDbScale
 70
     0
300
3" = 1'-0"
140
3.0
141
12.0
290
     0
  0
SCALE
  5
67
102
{ACAD_REACTORS
330
47
102
}
330
47
100
AcDbScale
 70
     0
300
6" = 1'-0"
140
6.0
141
12.0
290
     0
  0
SCALE
  5
68
102
{ACAD_REACTORS
330
47
102
}
330
47
100
AcDbScale
 70
     0
300
1'-0" = 1'-0"
140
12.0
141
12.0
290
     0
  0
ENDSEC
  0
EOF
